Диски та резина на квадроцикли

ATV (All Terrain Vehicle) та UTV (Utility Task Vehicle) і все що з ними пов'язано
Правила форуму
Будь-яка комерційна діяльність тільки в Куплю-продам
Аватар користувача
Andrew Outlander800
Повідомлень: 90
З нами з: 19 травня 2011, 22:37
Ім'я: Андрій
Авто: GL

Диски та резина на квадроцикли

Повідомлення Andrew Outlander800 » 02 березня 2013, 12:52

Прийшла весна. Сніг почне таяти і текти, сонце починає будити природу, а на лісових дорогах колія вневдовзі наповниться водою. Стомлені від зими квадроциклісти, в очікуванні нових вражень, починають готують свою техніку до нового весняного сезону. В процесі підготовки виникають думки про те яку резину вибрати для свого коня, яка дозволить побороти MUD Terrain.
Вибір виробників досить великий, але всю їх продукцію можна розділити на три групи (критерієм якої є розмр колеса та висота протектора):
Група 1. Агресивна резина (в осоновному для MUD ентузіастів (розмір 29 і більше дюймів):
Лідером групи є непереможний OUTLAW (як версія 1 так і весія 2 є дуже екстермальним варіантом та користується шаленою популярністю в Америці)
Зображення
Зображення
Сюди також входить Mega Mayhem від ITP:
Зображення
та ITP Mud-Lite XXL
Зображення
Переваги: незамінна в болоті по пояс;
Недоліки: дуже важка, потребує ліфтування підвіски, дає велике навантаження на варіатор (потребує заміни пружини на secondary на більш жорстку), коли їдеш по твердій поверхні на швидкості до 20 км.год складається враження, що в тебе квадратні колеса, не підходить для швидкісної їзди).

Група 2. Резина середньої агресивності (висота 26-28 дюймів з висотою протектороа близько 1 -1,2 дюйма)
Яскравим та самим популярними представниками є
Maxxis Zilla
Зображення
та ITP Mud-Lite XTR Radial
Зображення
та ITP Mud Lite
Зображення
Переваги: не надто важка, протектор оптимізований під болото, прекрасно себе поводить при їзді по лісах та вологих грунтах, придатна для швидкісної їзди
Недоліки: не підходить для постійної їзди по пояс в болоті, не оптимізована для їзди по камянистих дорогах з гострим камінням (можна отримати порізи між протекторами)

Група 3. Компромісна резина (резина типу All terrain condition з непоганими характеристиками при їзді в болоті розміром 25-26 дюймів)
Яскравими представниками є:
ITP Terracross Radial
Зображення
Interco Swamp-Lite
Зображення
Carlisle ACT Radial
Зображення
GBC Dirt Devil (АТ)
Зображення
Переваги: для мокрих, твердих та не сильно болотистих місцевостях
Недоліки: забиття протектора болотом, наслідком чого є втрата зчеплення та буксування

Аватар користувача
Andrew Outlander800
Повідомлень: 90
З нами з: 19 травня 2011, 22:37
Ім'я: Андрій
Авто: GL

Re: Диски та резина на квадроцикли

Повідомлення Andrew Outlander800 » 02 березня 2013, 13:26

На весняно-осіній сезон рекомендував би резину з другої групи та діаметром не більше 27 дюймів на дисках 12дюймів (бажано з бедлоком). Не останнм критерієм при виборі є вага колеса.
Для полегшення вибору привожу таблицю, де вказана вага кожного з коліс у порівнянні з оригінальними:
http://www.can-amforum.com/forums/attachments/atv-tires-wheels/19132d1361162475-need-some-advice-regarding-trail-tires-capture.jpg
Успіху Вам у виборі.

Аватар користувача
Quadro^^
Повідомлень: 458
З нами з: 17 листопада 2010, 23:01
Ім'я: Олег
Авто: BRP Outlander 1000XT, Renegade 1000 XXC
Звідки: Львів-Винники
Контактна інформація:

Re: Диски та резина на квадроцикли

Повідомлення Quadro^^ » 03 березня 2013, 23:44

чому не більше 27" ?
розмір і малюнок протектора треба підбирати під стиль покатух!
для змагань оптимальна 28" гума на 800+куб, та 27" на 600-750, ІМХО!
доречі, я дуже задоволений мадлайтами! одна з найлегших в 28" розмірі!
http://www.youtube.com/user/olehvoitovych/videos?view=0

Аватар користувача
Andrew Outlander800
Повідомлень: 90
З нами з: 19 травня 2011, 22:37
Ім'я: Андрій
Авто: GL

Re: Диски та резина на квадроцикли

Повідомлення Andrew Outlander800 » 08 березня 2013, 11:01

Quadro^^ писав:чому не більше 27" ?
розмір і малюнок протектора треба підбирати під стиль покатух!
для змагань оптимальна 28" гума на 800+куб, та 27" на 600-750, ІМХО!
доречі, я дуже задоволений мадлайтами! одна з найлегших в 28" розмірі!


Різниця між 27" і 28" у висоті колеса не надто вічутна, щоб давати суттєву перевагу у геометричній прхідності.
Але різниця у вазі між 27" і 28" починає зростати суттєво, щоб небути голослівним приводжу цифри для BRP CAN-AM Outlander.
Стандартні колеса
Carlisle ACT - 26" - 12"
Передні 26-8-12 - 17.3 lbs = 7,847 кг.
Задні - 26-10-12 - 26.8 lbs = 12,156 кг.

ITP Mud Lite - 28" - 14"
Передні 28-10-14 - 27.7 lbs = 12,565 кг. Різниця у порівнянні з стандартними = 4,718 кг.
Задні - 28-12-14 - 30.0 lbs = 13,607 кг. Різниця у порівнянні з стандартними = 1,451 кг.
На всіх колесах маєш + 12,338 кг. непідресорених мас. А це - втрата швидкості розгону, навантаження на підвіску, знос ремня варіатора.

Вже в 12 дюймі трохи легші:
ІTP Mud Lite - 28" - 12"
Передні 28-10-12 - 26.8 lbs = 12,156 кг.
Задні - 28-12-12 - 28.4.0 lbs = 12,882 кг.

Самі легкі Maxxis Zilla
Передні 27-9-12 - 20.3 lbs = 9,207 кг. Різниця у порівнянні з стандартними = 1,36 кг.
Задні 27-11-12 - 23.4 lbs = 10,614 кг. Різниця у порівнянні з стандартними = -1,542 кг.
На всіх колесах маєш -0,364 кг. непідресорених мас. Висновок зроби сам.

Аватар користувача
Quadro^^
Повідомлень: 458
З нами з: 17 листопада 2010, 23:01
Ім'я: Олег
Авто: BRP Outlander 1000XT, Renegade 1000 XXC
Звідки: Львів-Винники
Контактна інформація:

Re: Диски та резина на квадроцикли

Повідомлення Quadro^^ » 11 березня 2013, 22:18

Andrew Outlander800 писав:На всіх колесах маєш + 12,338 кг. непідресорених мас. А це - втрата швидкості розгону, навантаження на підвіску, знос ремня варіатора.

Вже в 12 дюймі трохи легші:
ІTP Mud Lite - 28" - 12"
Передні 28-10-12 - 26.8 lbs = 12,156 кг.
Задні - 28-12-12 - 28.4.0 lbs = 12,882 кг.
Висновок зроби сам.


Втрата швидкості - ну це як кому, мені динаміки на 1000 куб з 28" гумою абсолютно вистачає, з запасом! мені подобається - квадрік став плавніше рушати, можна стартанути внатяг! по проходімості виграв дуже суттєво, а це для мене в пріорітеті!
навантаження на підвіску теж залежать від стилю та умов їзди, більше ніж від непідресорених мас! ІМХО!
Ремінь варіатора це взагалі окрема тема - скажу тільки одне: їздити треба вміти та розуміти тех.частину! в мене вже 4000 км, ремінь заводський ще ні разу не міняв і він чудово себе почуває навіть в дуже тяжких умовах на 28" гумі!
хоча я згідний, що вага колеса відчутно впливає на здоров*я квадра! але тільки коли мова йде про 30" або тяжкі 27-28" гуми, заточені суто під болото, наприклад Горілли чи Аутло, тоді йде ставка виключно на прохідність, а про кайф від швидкісних прохватів по сухим полям літом можна забути)
а коли мова йде про якісь 5-10 кг непідресорених мас то смішно! вони погоди не роблять! знову ІМХО!
http://www.youtube.com/user/olehvoitovych/videos?view=0

Аватар користувача
Quadro^^
Повідомлень: 458
З нами з: 17 листопада 2010, 23:01
Ім'я: Олег
Авто: BRP Outlander 1000XT, Renegade 1000 XXC
Звідки: Львів-Винники
Контактна інформація:

Re: Диски та резина на квадроцикли

Повідомлення Quadro^^ » 18 березня 2013, 14:50

Вийшла нова гума від АЙТІПІ - Монстер Майхем (30*9*14/30*10*14)
а вот фото в порівнянні трьох найбільш агресивних та популярних шин в історії АТВ )) розмір - 30"
image (1).jpg
http://www.youtube.com/user/olehvoitovych/videos?view=0

Аватар користувача
Quadro^^
Повідомлень: 458
З нами з: 17 листопада 2010, 23:01
Ім'я: Олег
Авто: BRP Outlander 1000XT, Renegade 1000 XXC
Звідки: Львів-Винники
Контактна інформація:

Re: Диски та резина на квадроцикли

Повідомлення Quadro^^ » 23 березня 2013, 17:54

Вага гуми на АТВ, може комусь буде цікаво!
___________________________________________-
ITP
MUD LITE XXL
30x10-12 ------------------------ 15,0 кг.
30x12-12 ------------------------ 16,9 кг.
30x10-14 ------------------------ 15,5 кг.
30x12-14 ------------------------ 17,0 кг.
MUD LITE XL
25x8-12 -------------------- 10,9кг.
25x10-12 ------------------- 13,2кг.
25x12-12 ------------------- 11,8кг.
26x9-12 -------------------- 10,1кг.
26x10-12 ------------------- 10,2кг.
26x12-12 ------------------- 12,3кг.
27x9-12 --------------------- 11,4кг.
27x10-12 ------------------- 11,8кг.
27x12-12 ------------------- 12,7кг.
28x10-12 ------------------- 12,3кг.
28x12-12 ------------------- 13,6кг.
27x10-14 ------------------- 12,7кг.
27x12-14 ------------------- 14,1кг.
MUD LITE XTR
25x8-12 ---------------------- 10,3кг.
25x10-12 --------------------- 12,5кг.
26x9-12 ----------------------- 12,2кг.
26x11-12---------------------- 14.7кг.
27x9-12 ----------------------- 12,7кг.
27x11-12 ---------------------- 15.7кг.
27x9-14 ----------------------- 12,1кг
27x11-14 ---------------------- 15.1кг.
MUD LITE AT
25x8-12 -------------------- 6.8кг.
25x10-12 ------------------- 8.8кг.
MEGA MAYHEM
27x9-12 --------------------- 13,7кг.
27x11-12 ------------------- 15,3кг.
28x9-12 ------------------- 14,7кг.
28x11-12 ------------------- 15,6кг.
27x9-14 ------------------- 12,8кг.
27x11-14 ------------------- 15кг.
28x9-14 ------------------- 13,5кг.
28x11-14 ------------------- 15,1кг.
589
25x8-12 ------------------------ 9,1кг.
25x10-12 ---------------------- 11,8кг.
26x9-12 ------------------------ 12,3кг.
26x12-12 ----------------------- 14,5кг.
27x9-12 ------------------------ 12,9кг.
27x11-12----------------------- 14,1кг.
28x9-12 ------------------------ 12,5кг.
28x11-12 ---------------------- 14,3кг.
27x9-14 ------------------------ 12,1кг.
27x11-14----------------------- 13,2кг.
Terracross
25x8-12 -------------------- 8,1кг.
25x10-12 ------------------- 10,8кг.
26x9-12 -------------------- 10кг.
26x11-12 ------------------- 12,2кг.
26x9-14 -------------------- 10.7кг.
26x11-14 ------------------- 13,9кг.
BajaCross
25x8-12 -------------------- 10,2кг.
25x10-12 ------------------- 12,2кг.
26x9-12 -------------------- 12.5кг.
26x11-12 ------------------- 15кг.
26x10-14 -------------------- 11.9кг.
26x11-14 ------------------- 12,9кг.
28x10-14 -------------------- 14.5кг.
TundraCross
25x9-12 -------------------- 8.5кг.
25x10-12 ------------------- 8.8кг.
HOLESHOT
SXS
25X9-12------------------- 10.2кг.
25-11-12------------------- 12.2кг.
ATR
25X8-12------------------- 8.1кг.
25X10-12------------------- 9.5кг.
UltraCross
26x10-15-------------------12,3кг.
Black water Evolution
25x9R-12--------------------11,6кг.
25x11R-12-------------------12,9кг.
26x9R-12--------------------12,2кг.
26x11R-12-------------------13,7кг.
27x9R-12--------------------12,4кг.
27x11R-12-------------------14кг.
27x9R-14--------------------12,6кг.
27x11R-14-------------------14,1кг.
Gorilla Silverback
27x10-12 -------------------- 13,5кг.
27x12-12 ------------------- 17,5кг.
28x10-12 ------------------- 15.3кг.
28x12-12 ------------------- 18.9кг.
30x10-12 -------------------20кг
30x9-14 -------------------17.1кг
30x11-14 -------------------19.35кг
32x10-14-------------------23.4кг

-------------------------------------------------------------

Kenda
299 Bearclaw
25x8-12 ------------------- 8,2кг.
25x10-12 ------------------ 12,7кг.
25x12.5-12 ---------------- 14,1кг.
26x9-12 ------------------- 10,9кг.
26x12-12 ------------------ 16кг.
27x10-12 ----------------- 11,8кг.
27x12-12 ------------------ 16,4кг.
BEARCLAW HTR
25X8-12------------------9.45 кг.
25X10-12------------------ 11.4кг.
26X9-12------------------ 10.5кг.
26X11-12------------------13.9 кг.
27X9-12------------------ 11.2кг.
27X11-12------------------ 14.2кг.
26X9-14------------------11.25кг.
26X11-14------------------13.2 кг.
Executioner
25x8-12 ----------------- 9,1кг.
25x10-12----------------- 10,1кг.
26x10-12 ---------------- 15кг.
26x12-12 ---------------- 16кг.
27x10-12 ---------------- 16кг.
27x12-12 ---------------- 16,7кг.

-------------------------------------------------------------------

Maxxis
Mud bug radial
25x8-12--------------------- 8.3 кг.
25x10-12--------------------- 10.0 кг.
26x9-12--------------------- 8.6 кг.
26x11-12--------------------- 11.0 кг.
26x9-14--------------------- 9.1 кг.
26x11-14--------------------- 11.2 кг.
Bighorn
25x8-12--------------------- 10.2 кг.
26x9-12--------------------- 10.9 кг.
27x9-12--------------------- 11.4 кг.
26x9-14--------------------- 10.4 кг.
25x10-12--------------------- 13.0 кг.
26x12-12--------------------- 13.8 кг.
27x12-12--------------------- 14.9 кг.
26x11-14--------------------- 12.6 кг.
Zilla
25X8-12--------------------- 6,6 кг.
25X8-12----------------------8,8 кг.
26X9-12----------------------9,2 кг.
27X9-12----------------------9,8 кг.
28X10-12-------------------11,8 кг.
26X9-14---------------------9,4 кг.
27X10-14-------------------10,4 кг.
28X9-14--------------------10,8 кг.
25X11-10---------------------8,8 кг.
25X10-12---------------------8,3 кг.
25X10-12---------------------9,6 кг.
26X11-12--------------------10,8 кг.
27X11-12---------------------11,0 кг.
28X12-12---------------------12,5 кг.
26X11-14---------------------10,8 кг.
27X12-14---------------------12,0 кг.
28X11-14---------------------12,1 кг.
Mudzilla
AT25x8-12---------------------11.2 кг.
AT25x10-12---------------------13.3 кг.
AT26x9-12---------------------12.6 кг.
AT26x12-12---------------------15.5 кг.
AT27x9-12---------------------12.8 кг.
AT27x12-12---------------------17.4 кг.
AT28x8-12---------------------13.2 кг.
AT28x10-12---------------------16.2 кг.
AT28x12-12---------------------18.7 кг.
AT30x9-14---------------------17.3 кг.
AT30x11-14---------------------20.0 кг.
Mudbug
AT25x8-12---------------------8.9 кг.
AT26x10-12---------------------11.1 кг.
AT27x8-12---------------------9.8 кг.
AT27x10-12---------------------10.6 кг.
AT28x10-12---------------------11.6 кг.
AT25x10-12---------------------10.3 кг.
AT26x12-12---------------------12.8 кг.
AT27x12-12---------------------12.8 кг.
AT28x12-12---------------------13.8 кг.

-------------------------------------------------------------------

Deestone
936, он же Dirt Devil, он же Mudcrusher, он же Дьявол:
26x10-12 --------------------- 12,5кг.
26x12-12 --------------------- 15,2кг.
27x10-12 --------------------- 13,3кг.
27x12-12 --------------------- 15,3кг.
932 Swamp Witch, она же Болотная Ведьма
26x10-12 --------------------- 12,3кг
26х12-12 --------------------- 15,1кг
27x10-12 --------------------- 13,6кг
27х12-12 --------------------- 15,0кг
28x10-12 --------------------- 14,5кг
28х12-12 --------------------- 17,1кг

-------------------------------------------------------------------

Interco
Swamp Lite
26X12- 12 ---------------------13.95кг
26X10-12---------------------12.15кг
26X9-12---------------------11.7кг
27X9- 12---------------------12.2кг
27X10-12--------------------13.05кг
27X12-12---------------------13.5кг
28X10-12---------------------17.1кг
29.5X10- 12---------------------18кг
27x9-14 --------------------- 12.15 кг
27x11-14--------------------- 13.95 кг
28x9-14 --------------------- 12.5 кг
28x11-14--------------------- 15.5 кг
Black mamba
27X10-12---------------------24.75кг
30X10-12---------------------29.7кг
30X10-14---------------------29.5кг
32.5X10-14---------------------31.5кг
Vampires
26X9.5-12 ---------------------10.8кг
26X12-12 ---------------------14.4кг
27X10-12 ---------------------11.25кг
27X12-12--------------------- 14.6кг
28X10-12 ---------------------16.65кг

-------------------------------------------------------------------

High Lifter
OUTLAW
26x10x12--------------------- 12.8кг
26x12x12--------------------- 15.7кг
27x9.5x12--------------------- 13.6кг
27x12x12 --------------------- 15.9кг
28x9.5x12---------------------- 14.2кг
28x10.5x12--------------------- 15.3кг
28x12.5x12--------------------- 17.4кг
29.5x10x12--------------------- 17.1кг
29.5x12x12 --------------------- 19.3кг
31x9.5x14--------------------- 17.5кг
31x11x14--------------------- 19.8кг

-------------------------------------------------------------------

STORMBRINGER
NOMO
26х9-12---------------------10.1 кг
26х10-12---------------------11.8 кг
26х12-12---------------------12.5 кг
27х9-12---------------------10,8 кг
27х10-12---------------------11,4 кг
27х12-12---------------------13,9 кг
27х9-14---------------------11.2 кг
27х11-14---------------------14.1 кг
STORM
26х9-12---------------------12.1 кг
26х12-12---------------------14 кг
27х9-12---------------------13.2 кг
27х12-12---------------------15,7 кг

-------------------------------------------------------------------
Carlisle
MUD WOLF
25x8-12--------------------- 10,6кг
25x11-12--------------------- 14 кг
26x9-12 ---------------------12,8 кг
26x12-12 ---------------------16,1 кг
27x9-12--------------------- 14,1 кг
27x12-12--------------------- 17,9 кг
MUD WOLF XL
26x9-14--------------------- 9,5 кг
26x11-14 ---------------------12,6 кг
ACT
23x7-12--------------------- 6,5 кг
23x10-12--------------------- 8,2 кг
25x8-12 ---------------------8,2 кг
25x11-12 ---------------------10,8 кг
26x8-12 ---------------------7,8 кг
26x10-12 ---------------------10,3 кг
ACT HD
25x8-12--------------------- 9,8 кг
25x11-12--------------------- 12,5 кг
26x9-12 ---------------------11,6 кг
26x11-12--------------------- 13,8 кг
27x9-12 ---------------------12 кг
27x11-12 ---------------------14,4 кг
BLACK ROCK
25x8-12--------------------- 8,1 кг
25x11-12 ---------------------9,2 кг
26x9-12--------------------- 8,6 кг
26x11-12 ---------------------10,5 кг
27x9-14 ---------------------10,3 кг
27x11-14 ---------------------12,1 кг
AT489 X/L
26x8-12--------------------- 7,8 кг
26x11-12 ---------------------11 кг
27x9-12--------------------- 8,6 кг
27x11-12--------------------- 11,2 кг
AT489 II
26x8-14 ---------------------7,5 кг
26x10-14---------------------9,8 кг
ALL TRAIL
25x8-12---------------------8,9 кг
25x10.5-12---------------------12 кг
-------------------------------------------------------------------
CST
Ancla
25x8-12--------------------- 10,2 кг
25x10-12---------------------10,8 кг
25x11-12 ---------------------10.8 кг
26x9-12--------------------- 11,2 кг
26x11-12 ---------------------11.4 кг
26x12-12 ---------------------11.6 кг
http://www.youtube.com/user/olehvoitovych/videos?view=0


Повернутись до “Квадроцикли та Баггі”

Хто зараз онлайн

Зараз переглядають цей форум: Немає зареєстрованих користувачів і 3 гостей